Does Anyone have guitar tabs for the Michael Jackson song "Beat It"
 

Does Anyone have guitar tabs for the Michael Jackson song "Beat It"

    
Does Anyone have guitar tabs for the Michael Jackson song "Beat It"    17:44 on Thursday, January 12, 2006          
(Logan)
Posted by Archived posts

Does Anyone Have Guitar Tabs For The Michael Jackon Song "Beat It"


Re: Does Anyone have guitar tabs for the Michael Jackson song Beat It    10:12 on Tuesday, January 17, 2006          

IronMaidenRox09
(2 points)
Posted by IronMaidenRox09

sure do here it is


The opening and chorus guitar riff, doubled by the bass:


e:-----|-----------------|-----------------|-----------------|-------------||
B:-----|-----------------|-----------------|-----------------|-------------||
G:-----|-----------------|-----------------|-----------------|-------------||
D:-----|-------5-2-----4-|---2-------------|-------5-2-----4-|---2---------||
A:-----|-----2-----------|-----5---5-------|-----2-----------|-----5-------||
E:--0--|---3-------------|---------------0-|---3-------------|-------------||



e:-----------------------------------|-----------------------||
B:-----------------------------------|-----------------------||
G:--x---x-x-12--x-x-12---9-------x-x-|-11---x-x-11---7-------||
D:--x---x-x-12--x-x-12---9-------x-x-|-12---x-x-12---7-------||
A:-----------------------------------|-----------------------||
E:-----------------------------------|-----------------------||



Verse:

E5 D5 E5 D5
e:------------------|-------------|-----------------|-------------|
B:------------------|-------------|-----------------|-------------|
G:--x-9-9---9---x-7-|-7---7-------|-x-9-9---9---x-7-|-7---7-------|
D:--x-9-9---9---x-7-|-7---7-------|-x-9-9---9---x-7-|-7---7-------|
A:--x-7-7---7---x-5-|-5---5-------|-x-7-7---7---x-5-|-5---5-------|
E:------------------|-------------|-----------------|-------------|




C5 D5 E5 D5
e:-----------------|-------------|-----------------|------------------||
B:-----------------|-------------|-----------------|------------------||
G:-x-5-5---5---x-7-|-7---7-------|-x-9-9---9---x-7-|-7---7------------||
D:-x-5-5---5---x-7-|-7---7-------|-x-9-9---9---x-7-|-7---7------------||
A:-x-3-3---3---x-5-|-5---5-------|-x-7-7---7---x-5-|-5---5------------||
E:-----------------|-------------|-----------------|---------15\------||



The solo is pretty tough...well extremely tough but here it is if u want it

|----------------------------|----------------------------|
|----------------------------|----------------------------|
|-(1)b3==(1)-----(1)r(1)s6---|-(6)-6(13)-----(6)s8-8(13)--|
|----------------------------|----------------------------|
|----------------------------|----------------------------|
|----------------------------|----------------------------|


T T T T
|------5------| |------6-------|

|------(23)--14p9h13-14p13p11p==9h13-14p13p11p9h13-14p|
|--------------------------------------------------------|
|-(8)----------------------------------------------------|
|--------------------------------------------------------|
|--------------------------------------------------------|
|--------------------------------------------------------|


T T ~~~
|---------7----------| |---------7----------|

|-14p121p9-----------------------------------------------------------|
|----------h13---15p13p11p9h14-14p13p==11p9-(9)h11h12p11-------(11)s=|
|--------------------------------------------------------------------|
|--------------------------------------------------------------------|
|--------------------------------------------------------------------|
|--------------------------------------------------------------------|


|-----5-----| |------6-------|

|------------------11h18p14p11----11-------------11----|
|-18------11-14h18-------------18-11-18p14p11h14----18p|
|------------------------------------------------------|
|------------------------------------------------------|
|------------------------------------------------------|
|------------------------------------------------------|


|---------7---------|

|----------11------------11-----------------------------------------------|
|-14p11h14------18p14p11----11---------------------14b16==(14)r(14)p11h===|
|------------------------------13b14==(13)r(13)p11------------------------|
|-------------------------------------------------------------------------|
|-------------------------------------------------------------------------|
|-------------------------------------------------------------------------|



\2.5_______
T T

|----------------18s21--------------------------------------------------|
|-14-18s21p14p11-------14p11--------------------------------------------|
|-----------------------------13b14==(13)-(13)r(13)p11------------------|
|------------------------------------------------------4-(4)-(4)----(4)-|
|-----------------------------------------------------------------------|
|-----------------------------------------------------------------------|


/ \1/

|------------------------------------------|
|------------------------------------------|
|------------[8]b10==(8)r(8)p6h8-(8)p6-(6)-|
|--(4)-------------------------------------|
|------------------------------------------|
|------------------------------------------|



|-----------------------------------------------|
|------2b4==(2)-(2)r(2)--h2b4==(2)r(2)--2b4=====|
|-(6)\-----------------p4-------------p4--------|
|-----------------------------------------------|
|-----------------------------------------------|
|-----------------------------------------------|


|------------------------------------------------|
|=(2)rp0-2b4==(2)r(2)p0--------------------------|
|-----------------------[1]b4==([1])--([1])r-(1)s|
|------------------------------------------------|
|------------------------------------------------|
|------------------------------------------------|

~~~~~

|-------------11--------------11-14b16==(14)r---11----|
|----------------14b16==(14)r-11-------------------11-|
|-15-----6s12-----------------------------------------|
|-----------------------------------------------------|
|-----------------------------------------------------|
|-----------------------------------------------------|

~~~~~~~~~ T

|------------------------------------------------|
|---------------------------------------14h17p12-|
|-13b15==(13)r(13)p11-13---(13)-(13)\------------|
|------------------------------------------------|
|------------------------------------------------|
|------------------------------------------------|



T T T T T T T T


|-14h17p11--------14h17p11--------14h17p11--------14h17p11------ h12-16p==|
|---------14h17p11--------14h17p11--------14h17p11--------14p==11---------|
|-------------------------------------------------------------------------|
|-------------------------------------------------------------------------|
|-------------------------------------------------------------------------|
|-------------------------------------------------------------------------|


T T
|3-| |3-|

|-9-16p9-16p9s==7------0---------11-------|
|-------------------------0-14b16==(14)r--|
|--------------------8s13-----------------|
|-----------------------------------------|
|-----------------------------------------|
|-----------------------------------------|


TP TP TP TP TP TP TP TP TP

|-11---13---14-----16-|-16---18---18--21b23==(21)-----||
|---------------------|-------------------------------||
|---------------------|-------------------------------||
|---------------------|-------------------------------||
|---------------------|-------------------------------||
|---------------------|-------------------------------||


Re: Does Anyone have guitar tabs for the Michael Jackson song    23:35 on Sunday, March 12, 2006          
   

This forum: Older: Scottish Guitar Quartet
 Newer: Peculiar versions of the Rock Classics

Help & Info



8notes in other languages:
             


 
© 2000-2016 8notes.com